  0
SECTION
  2
HEADER
  9
$ACADVER
  1
AC1009
  9
$INSBASE
 10
147.3569016789565
 20
297.5876505821668
 30
0.0
  9
$EXTMIN
 10
146.5284745542103
 20
297.0698836292004
 30
0.0
  9
$EXTMAX
 10
1085.412737100843
 20
597.8981904603901
 30
0.0
  9
$LIMMIN
 10
0.0
 20
0.0
  9
$LIMMAX
 10
420.0
 20
297.0
  9
$ORTHOMODE
 70
     0
  9
$REGENMODE
 70
     0
  9
$FILLMODE
 70
     1
  9
$QTEXTMODE
 70
     0
  9
$MIRRTEXT
 70
     0
  9
$DRAGMODE
 70
     2
  9
$LTSCALE
 40
1.0
  9
$OSMODE
 70
     0
  9
$ATTMODE
 70
     1
  9
$TEXTSIZE
 40
3.5
  9
$TRACEWID
 40
0.1
  9
$TEXTSTYLE
  7
STANDARD
  9
$CLAYER
  8
4AN
  9
$CELTYPE
  6
BYLAYER
  9
$CECOLOR
 62
   256
  9
$DIMSCALE
 40
1.0
  9
$DIMASZ
 40
2.5
  9
$DIMEXO
 40
1.0
  9
$DIMDLI
 40
8.0
  9
$DIMRND
 40
0.0
  9
$DIMDLE
 40
0.0
  9
$DIMEXE
 40
2.0
  9
$DIMTP
 40
0.1
  9
$DIMTM
 40
0.1
  9
$DIMTXT
 40
3.5
  9
$DIMCEN
 40
2.0
  9
$DIMTSZ
 40
0.0
  9
$DIMTOL
 70
     0
  9
$DIMLIM
 70
     0
  9
$DIMTIH
 70
     0
  9
$DIMTOH
 70
     0
  9
$DIMSE1
 70
     0
  9
$DIMSE2
 70
     0
  9
$DIMTAD
 70
     1
  9
$DIMZIN
 70
     8
  9
$DIMBLK
  1

  9
$DIMASO
 70
     1
  9
$DIMSHO
 70
     1
  9
$DIMPOST
  1

  9
$DIMAPOST
  1

  9
$DIMALT
 70
     0
  9
$DIMALTD
 70
     2
  9
$DIMALTF
 40
25.39999999999999
  9
$DIMLFAC
 40
1.0
  9
$DIMTOFL
 70
     1
  9
$DIMTVP
 40
0.0
  9
$DIMTIX
 70
     0
  9
$DIMSOXD
 70
     0
  9
$DIMSAH
 70
     0
  9
$DIMBLK1
  1

  9
$DIMBLK2
  1

  9
$DIMSTYLE
  2
*UNNAMED
  9
$DIMCLRD
 70
   256
  9
$DIMCLRE
 70
   256
  9
$DIMCLRT
 70
     2
  9
$DIMTFAC
 40
0.71
  9
$DIMGAP
 40
1.5
  9
$LUNITS
 70
     2
  9
$LUPREC
 70
     3
  9
$SKETCHINC
 40
0.1
  9
$FILLETRAD
 40
4.0
  9
$AUNITS
 70
     0
  9
$AUPREC
 70
     3
  9
$MENU
  1

  9
$ELEVATION
 40
0.0
  9
$PELEVATION
 40
0.0
  9
$THICKNESS
 40
0.0
  9
$LIMCHECK
 70
     0
  9
$BLIPMODE
 70
     0
  9
$CHAMFERA
 40
2.5
  9
$CHAMFERB
 40
2.5
  9
$SKPOLY
 70
     1
  9
$TDCREATE
 40
2449364.612612499
  9
$TDUPDATE
 40
2449394.636751041
  9
$TDINDWG
 40
0.0035446759
  9
$TDUSRTIMER
 40
0.0035446759
  9
$USRTIMER
 70
     1
  9
$ANGBASE
 50
0.0
  9
$ANGDIR
 70
     0
  9
$PDMODE
 70
     3
  9
$PDSIZE
 40
0.0
  9
$PLINEWID
 40
0.0
  9
$COORDS
 70
     2
  9
$SPLFRAME
 70
     0
  9
$SPLINETYPE
 70
     6
  9
$SPLINESEGS
 70
     8
  9
$ATTDIA
 70
     1
  9
$ATTREQ
 70
     1
  9
$HANDLING
 70
     0
  9
$HANDSEED
  5
2BDE73D
  9
$SURFTAB1
 70
     6
  9
$SURFTAB2
 70
     6
  9
$SURFTYPE
 70
     6
  9
$SURFU
 70
     6
  9
$SURFV
 70
     6
  9
$UCSNAME
  2

  9
$UCSORG
 10
0.0
 20
0.0
 30
0.0
  9
$UCSXDIR
 10
1.0
 20
0.0
 30
0.0
  9
$UCSYDIR
 10
0.0
 20
1.0
 30
0.0
  9
$PUCSNAME
  2

  9
$PUCSORG
 10
0.0
 20
0.0
 30
0.0
  9
$PUCSXDIR
 10
1.0
 20
0.0
 30
0.0
  9
$PUCSYDIR
 10
0.0
 20
1.0
 30
0.0
  9
$USERI1
 70
     0
  9
$USERI2
 70
     3
  9
$USERI3
 70
    15
  9
$USERI4
 70
     0
  9
$USERI5
 70
     0
  9
$USERR1
 40
1.0
  9
$USERR2
 40
1.0
  9
$USERR3
 40
0.0
  9
$USERR4
 40
1.0
  9
$USERR5
 40
0.0
  9
$WORLDVIEW
 70
     5
  9
$SHADEDGE
 70
     3
  9
$SHADEDIF
 70
    70
  9
$TILEMODE
 70
     1
  9
$MAXACTVP
 70
     4
  9
$PINSBASE
 10
0.0
 20
0.0
 30
0.0
  9
$PLIMCHECK
 70
     0
  9
$PEXTMIN
 10
1.000000000000000E+20
 20
1.000000000000000E+20
 30
1.000000000000000E+20
  9
$PEXTMAX
 10
-1.000000000000000E+20
 20
-1.000000000000000E+20
 30
-1.000000000000000E+20
  9
$PLIMMIN
 10
0.0
 20
0.0
  9
$PLIMMAX
 10
420.0
 20
297.0
  9
$UNITMODE
 70
     0
  9
$VISRETAIN
 70
     0
  9
$PLINEGEN
 70
     0
  9
$PSLTSCALE
 70
     0
  9
$TREEDEPTH
 70
  3020
  9
$DWGCODEPAGE
  3
undefined
  0
ENDSEC
  0
SECTION
  2
TABLES
  0
TABLE
  2
VPORT
 70
     2
  0
VPORT
  2
*ACTIVE
 70
     0
 10
0.0
 20
0.0
 11
1.0
 21
1.0
 12
615.9706058275271
 22
664.9331390037157
 13
0.0
 23
0.0
 14
7.0
 24
7.0
 15
10.0
 25
10.0
 16
0.0
 26
0.0
 36
1.0
 17
0.0
 27
0.0
 37
0.0
 40
734.6909768430979
 41
1.275675675675675
 42
50.0
 43
0.0
 44
0.0
 50
0.0
 51
0.0
 71
     0
 72
   100
 73
     1
 74
     0
 75
     0
 76
     0
 77
     0
 78
     0
  0
ENDTAB
  0
TABLE
  2
LTYPE
 70
     2
  0
LTYPE
  2
CONTINUOUS
 70
    64
  3
Solid line
 72
    65
 73
     0
 40
0.0
  0
LTYPE
  2
GEN
 70
    64
  3
----------------------
 72
    65
 73
     2
 40
10000000000.0
 49
0.0
 49
10000000000.0
  0
ENDTAB
  0
TABLE
  2
LAYER
 70
     5
  0
LAYER
  2
0
 70
     0
 62
     7
  6
GEN
  0
LAYER
  2
ITEM_50
 70
    64
 62
     7
  6
CONTINUOUS
  0
LAYER
  2
ITEM_25
 70
    64
 62
     3
  6
CONTINUOUS
  0
LAYER
  2
ITEM_HILFE
 70
    64
 62
     3
  6
CONTINUOUS
  0
LAYER
  2
4AN
 70
     0
 62
     3
  6
CONTINUOUS
  0
ENDTAB
  0
TABLE
  2
STYLE
 70
     1
  0
STYLE
  2
STANDARD
 70
     0
 40
0.0
 41
1.0
 50
0.0
 71
     0
 42
3.5
  3
GENISO
  4

  0
ENDTAB
  0
TABLE
  2
VIEW
 70
     0
  0
ENDTAB
  0
TABLE
  2
UCS
 70
     0
  0
ENDTAB
  0
TABLE
  2
APPID
 70
     1
  0
APPID
  2
ACAD
 70
    64
  0
ENDTAB
  0
TABLE
  2
DIMSTYLE
 70
     0
  0
ENDTAB
  0
ENDSEC
  0
SECTION
  2
BLOCKS
  0
ENDSEC
  0
SECTION
  2
ENTITIES
  0
POINT
  8
ITEM_HILFE
 10
611.9772699208524
 20
489.6433387181072
 30
0.0
  0
LINE
  8
ITEM_50
 10
615.2772699208403
 20
337.5876505821603
 30
0.0
 11
968.6772699208404
 21
337.5876505821603
 31
0.0
  0
CIRCLE
  8
ITEM_50
 10
611.9772699208403
 20
357.5876505821664
 30
0.0
 40
3.299999999999999
  0
CIRCLE
  8
ITEM_50
 10
611.9772699208403
 20
337.5876505821604
 30
0.0
 40
3.299999999999999
  0
CIRCLE
  8
ITEM_50
 10
611.9772699208403
 20
317.5876505821545
 30
0.0
 40
3.299999999999999
  0
LINE
  8
ITEM_50
 10
267.9772699208427
 20
297.5876505821668
 30
0.0
 11
267.9772699208427
 21
377.5876505821668
 31
0.0
  0
CIRCLE
  8
ITEM_50
 10
283.9772699208368
 20
317.5876505821547
 30
0.0
 40
3.299999999999999
  0
CIRCLE
  8
ITEM_50
 10
283.9772699208368
 20
337.617232605249
 30
0.0
 40
3.299999999999999
  0
CIRCLE
  8
ITEM_50
 10
283.9772699208368
 20
357.5876505821662
 30
0.0
 40
3.299999999999999
  0
CIRCLE
  8
ITEM_50
 10
971.9772699208403
 20
317.5876505821545
 30
0.0
 40
3.299999999999999
  0
CIRCLE
  8
ITEM_50
 10
971.9772699208403
 20
337.5876505821604
 30
0.0
 40
3.299999999999999
  0
CIRCLE
  8
ITEM_50
 10
971.9772699208403
 20
357.5876505821664
 30
0.0
 40
3.299999999999999
  0
LINE
  8
ITEM_50
 10
987.9772699208465
 20
297.5876505821668
 30
0.0
 11
987.9772699208465
 21
377.5876505821668
 31
0.0
  0
LINE
  8
ITEM_50
 10
267.9772699208427
 20
297.5876505821668
 30
0.0
 11
987.9772699208426
 21
297.5876505821668
 31
0.0
  0
LINE
  8
ITEM_50
 10
267.9772699208427
 20
377.5876505821668
 30
0.0
 11
987.9772699208426
 21
377.5876505821668
 31
0.0
  0
LINE
  8
ITEM_50
 10
987.9772699208426
 20
297.5876505821668
 30
0.0
 11
987.9772699208426
 21
377.5876505821668
 31
0.0
  0
LINE
  8
ITEM_50
 10
267.9772699208427
 20
351.5876505817785
 30
0.0
 11
987.9772699208426
 21
351.5876505817784
 31
0.0
  0
LINE
  8
ITEM_50
 10
987.9772699208426
 20
323.5876505817787
 30
0.0
 11
267.9772699208427
 21
323.5876505817787
 31
0.0
  0
LINE
  8
ITEM_50
 10
267.9772699208427
 20
337.5876505821603
 30
0.0
 11
280.6774025138172
 21
337.5876505821603
 31
0.0
  0
LINE
  8
ITEM_50
 10
987.9772699208426
 20
370.9876505825416
 30
0.0
 11
267.9772699208427
 21
370.9876505825416
 31
0.0
  0
LINE
  8
ITEM_50
 10
987.9772699208426
 20
304.1876505817726
 30
0.0
 11
267.9772699208427
 21
304.1876505817725
 31
0.0
  0
LINE
  8
ITEM_50
 10
267.9772699208427
 20
297.5876505821668
 30
0.0
 11
266.4772699208427
 21
297.5876505821668
 31
0.0
  0
LINE
  8
ITEM_50
 10
263.9772699208427
 20
300.0876505821668
 30
0.0
 11
263.9772699208427
 21
375.0876505821668
 31
0.0
  0
LINE
  8
ITEM_50
 10
266.4772699208427
 20
377.5876505821668
 30
0.0
 11
267.9772699208427
 21
377.5876505821668
 31
0.0
  0
ARC
  8
ITEM_50
 10
266.4772699208427
 20
300.0876505821668
 30
0.0
 40
2.5
 50
179.9999999999999
 51
270.0
  0
ARC
  8
ITEM_50
 10
266.4772699208427
 20
375.0876505821668
 30
0.0
 40
2.5
 50
90.0
 51
179.9999999999999
  0
LINE
  8
ITEM_50
 10
267.9772699208427
 20
489.6433387181072
 30
0.0
 11
266.4772699208427
 21
489.6433387181072
 31
0.0
  0
LINE
  8
ITEM_50
 10
263.9772699208427
 20
487.1433387181072
 30
0.0
 11
263.9772699208427
 21
412.1433387181072
 31
0.0
  0
LINE
  8
ITEM_50
 10
266.4772699208427
 20
409.6433387181072
 30
0.0
 11
267.9772699208427
 21
409.6433387181072
 31
0.0
  0
ARC
  8
ITEM_50
 10
266.4772699208427
 20
487.1433387181072
 30
0.0
 40
2.5
 50
90.0
 51
180.0
  0
ARC
  8
ITEM_50
 10
266.4772699208427
 20
412.1433387181072
 30
0.0
 40
2.5
 50
180.0
 51
270.0
  0
LINE
  8
ITEM_50
 10
1008.584309976097
 20
409.6433387181071
 30
0.0
 11
1080.584311421433
 21
409.6433387181071
 31
0.0
  0
ARC
  8
ITEM_50
 10
1080.584309976097
 20
413.6433387181072
 30
0.0
 40
4.0
 50
296.5650511770764
 51
359.9999725594439
  0
ARC
  8
ITEM_50
 10
1080.584309976097
 20
413.6433387181072
 30
0.0
 40
4.0
 50
270.0
 51
296.5650511770764
  0
LINE
  8
ITEM_50
 10
1084.584309976097
 20
413.6433387181072
 30
0.0
 11
1084.584309976097
 21
485.6433387181072
 31
0.0
  0
ARC
  8
ITEM_50
 10
1080.584309976097
 20
485.6433387181072
 30
0.0
 40
4.0
 50
0.0
 51
90.0
  0
LINE
  8
ITEM_50
 10
1080.584309976097
 20
489.6433387181072
 30
0.0
 11
1008.584309976097
 21
489.6433387181072
 31
0.0
  0
ARC
  8
ITEM_50
 10
1008.584309976097
 20
485.6433387181072
 30
0.0
 40
4.0
 50
90.0
 51
180.0
  0
LINE
  8
ITEM_50
 10
1004.584309976097
 20
413.6433387181071
 30
0.0
 11
1004.584309976097
 21
485.6433387181072
 31
0.0
  0
CIRCLE
  8
ITEM_50
 10
1078.0843099761
 20
416.1433387181104
 30
0.0
 40
4.15
  0
CIRCLE
  8
ITEM_50
 10
1078.0843099761
 20
483.1433387181041
 30
0.0
 40
4.15
  0
CIRCLE
  8
ITEM_50
 10
1011.08431142143
 20
416.1433387181104
 30
0.0
 40
4.15
  0
CIRCLE
  8
ITEM_50
 10
1011.08431142143
 20
483.1433387181041
 30
0.0
 40
4.15
  0
LINE
  8
ITEM_50
 10
267.9772699208427
 20
377.5876505821668
 30
0.0
 11
267.9772699208427
 21
297.5876505821668
 31
0.0
  0
LINE
  8
ITEM_50
 10
267.9772699208427
 20
409.6433387181072
 30
0.0
 11
267.9772699208427
 21
489.6433387181072
 31
0.0
  0
LINE
  8
ITEM_50
 10
987.9772699208426
 20
377.5876505821668
 30
0.0
 11
987.9772699208426
 21
297.5876505821668
 31
0.0
  0
ARC
  8
ITEM_50
 10
989.4772699208426
 20
375.0876505821668
 30
0.0
 40
2.5
 50
0.0000000000000254
 51
90.0
  0
ARC
  8
ITEM_50
 10
989.4772699208426
 20
300.0876505821668
 30
0.0
 40
2.5
 50
270.0
 51
0.0000000000000254
  0
LINE
  8
ITEM_50
 10
989.4772699208426
 20
377.5876505821668
 30
0.0
 11
987.9772699208426
 21
377.5876505821668
 31
0.0
  0
LINE
  8
ITEM_50
 10
991.9772699208426
 20
300.0876505821668
 30
0.0
 11
991.9772699208426
 21
375.0876505821668
 31
0.0
  0
LINE
  8
ITEM_50
 10
987.9772699208426
 20
297.5876505821668
 30
0.0
 11
989.4772699208426
 21
297.5876505821668
 31
0.0
  0
LINE
  8
ITEM_50
 10
987.9772699208426
 20
297.5876505821668
 30
0.0
 11
987.9772699208426
 21
377.5876505821668
 31
0.0
  0
LINE
  8
ITEM_50
 10
987.9772699208426
 20
517.3804235074238
 30
0.0
 11
987.9772699208426
 21
597.3804235074238
 31
0.0
  0
LINE
  8
ITEM_50
 10
987.9772699208426
 20
517.3804235074238
 30
0.0
 11
989.4772699208426
 21
517.3804235074238
 31
0.0
  0
LINE
  8
ITEM_50
 10
991.9772699208426
 20
519.8804235074238
 30
0.0
 11
991.9772699208426
 21
594.8804235074238
 31
0.0
  0
LINE
  8
ITEM_50
 10
989.4772699208426
 20
597.3804235074238
 30
0.0
 11
987.9772699208426
 21
597.3804235074238
 31
0.0
  0
ARC
  8
ITEM_50
 10
989.4772699208426
 20
519.8804235074238
 30
0.0
 40
2.5
 50
270.0
 51
0.0000000000000254
  0
ARC
  8
ITEM_50
 10
989.4772699208426
 20
594.8804235074238
 30
0.0
 40
2.5
 50
0.0000000000000254
 51
90.0
  0
LINE
  8
ITEM_50
 10
987.9772699208426
 20
597.3804235074238
 30
0.0
 11
987.9772699208426
 21
517.3804235074238
 31
0.0
  0
LINE
  8
ITEM_50
 10
263.9772699208427
 20
519.8804235074238
 30
0.0
 11
263.9772699208427
 21
594.8804235074238
 31
0.0
  0
LINE
  8
ITEM_50
 10
267.9772699208427
 20
597.3804235074238
 30
0.0
 11
267.9772699208427
 21
517.3804235074238
 31
0.0
  0
ARC
  8
ITEM_50
 10
266.4772699208427
 20
594.8804235074238
 30
0.0
 40
2.5
 50
90.0
 51
179.9999999999999
  0
ARC
  8
ITEM_50
 10
266.4772699208427
 20
519.8804235074238
 30
0.0
 40
2.5
 50
179.9999999999999
 51
270.0
  0
LINE
  8
ITEM_50
 10
266.4772699208427
 20
597.3804235074238
 30
0.0
 11
267.9772699208427
 21
597.3804235074238
 31
0.0
  0
LINE
  8
ITEM_50
 10
267.9772699208427
 20
517.3804235074238
 30
0.0
 11
266.4772699208427
 21
517.3804235074238
 31
0.0
  0
LINE
  8
ITEM_50
 10
987.9772699208426
 20
523.9804235070296
 30
0.0
 11
955.9772699208465
 21
523.9804235070296
 31
0.0
  0
LINE
  8
ITEM_50
 10
987.9772699208426
 20
590.7804235077986
 30
0.0
 11
955.9772699208465
 21
590.7804235077986
 31
0.0
  0
LINE
  8
ITEM_50
 10
267.9772699208427
 20
557.3804235074173
 30
0.0
 11
415.9772699208427
 21
557.3804235074172
 31
0.0
  0
LINE
  8
ITEM_50
 10
987.9772699208426
 20
543.3804235070358
 30
0.0
 11
955.9772699208465
 21
543.3804235070357
 31
0.0
  0
LINE
  8
ITEM_50
 10
267.9772699208427
 20
571.3804235070356
 30
0.0
 11
415.9772699208427
 21
571.3804235070355
 31
0.0
  0
LINE
  8
ITEM_50
 10
987.9772699208426
 20
517.3804235074238
 30
0.0
 11
987.9772699208426
 21
597.3804235074238
 31
0.0
  0
LINE
  8
ITEM_50
 10
267.9772699208427
 20
597.3804235074238
 30
0.0
 11
987.9772699208426
 21
597.3804235074239
 31
0.0
  0
LINE
  8
ITEM_50
 10
267.9772699208427
 20
517.3804235074238
 30
0.0
 11
987.9772699208426
 21
517.3804235074238
 31
0.0
  0
LINE
  8
ITEM_50
 10
987.9772699208465
 20
517.3804235074238
 30
0.0
 11
987.9772699208465
 21
597.3804235074238
 31
0.0
  0
LINE
  8
ITEM_50
 10
267.9772699208427
 20
517.3804235074238
 30
0.0
 11
267.9772699208427
 21
597.3804235074238
 31
0.0
  0
LINE
  8
ITEM_50
 10
955.9772699208465
 20
517.3804235074238
 30
0.0
 11
955.9772699208465
 21
597.3804235074238
 31
0.0
  0
LINE
  8
ITEM_50
 10
415.9772699208427
 20
517.3804235074238
 30
0.0
 11
415.9772699208427
 21
597.3804235074238
 31
0.0
  0
LINE
  8
ITEM_50
 10
987.9772699208465
 20
480.1433387181103
 30
0.0
 11
267.9772699208427
 21
480.1433387181104
 31
0.0
  0
LINE
  8
ITEM_50
 10
987.9772699208465
 20
419.1261323766696
 30
0.0
 11
267.9772699208427
 21
419.1261323766695
 31
0.0
  0
LINE
  8
ITEM_50
 10
987.9772699208465
 20
420.4431063099128
 30
0.0
 11
267.9772699208427
 21
420.4431063099127
 31
0.0
  0
LINE
  8
ITEM_50
 10
267.9772699208427
 20
489.6433387181072
 30
0.0
 11
987.9772699208465
 21
489.6433387181073
 31
0.0
  0
LINE
  8
ITEM_50
 10
987.9772699208465
 20
409.6433387181072
 30
0.0
 11
987.9772699208465
 21
489.6433387181072
 31
0.0
  0
ARC
  8
ITEM_50
 10
989.4772699208465
 20
412.1433387181072
 30
0.0
 40
2.5
 50
270.0
 51
0.0
  0
ARC
  8
ITEM_50
 10
989.4772699208465
 20
487.1433387181072
 30
0.0
 40
2.5
 50
0.0
 51
90.0
  0
LINE
  8
ITEM_50
 10
989.4772699208465
 20
409.6433387181072
 30
0.0
 11
987.9772699208465
 21
409.6433387181072
 31
0.0
  0
LINE
  8
ITEM_50
 10
991.9772699208465
 20
487.1433387181072
 30
0.0
 11
991.9772699208465
 21
412.1433387181072
 31
0.0
  0
LINE
  8
ITEM_50
 10
987.9772699208465
 20
489.6433387181072
 30
0.0
 11
989.4772699208465
 21
489.6433387181072
 31
0.0
  0
LINE
  8
ITEM_50
 10
267.9772699208427
 20
409.6433387181072
 30
0.0
 11
987.9772699208465
 21
409.6433387181072
 31
0.0
  0
LINE
  8
ITEM_50
 10
415.9772699208426
 20
419.1261323766695
 30
0.0
 11
415.9772699208426
 21
409.6433387181072
 31
0.0
  0
LINE
  8
ITEM_50
 10
955.9772699208465
 20
419.1261323766695
 30
0.0
 11
955.9772699208465
 21
409.6433387181072
 31
0.0
  0
POINT
  8
ITEM_HILFE
 10
283.9772699208368
 20
489.6433387181072
 30
0.0
  0
LINE
  8
ITEM_50
 10
287.2771373278564
 20
337.5876505821603
 30
0.0
 11
608.6772699208404
 21
337.5876505821603
 31
0.0
  0
LINE
  8
ITEM_50
 10
975.2772699208405
 20
337.5876505821603
 30
0.0
 11
987.9772699208426
 21
337.5876505821603
 31
0.0
  0
POINT
  8
ITEM_HILFE
 10
971.9772699208524
 20
489.6433387181072
 30
0.0
  0
POINT
  8
ITEM_HILFE
 10
1044.584309976097
 20
489.6433387181072
 30
0.0
  0
POINT
  8
ITEM_HILFE
 10
1024.584309976097
 20
489.6433387181072
 30
0.0
  0
POINT
  8
ITEM_HILFE
 10
1064.584309976097
 20
489.6433387181072
 30
0.0
  0
CIRCLE
  8
ITEM_50
 10
1044.584309976097
 20
429.6433387181072
 30
0.0
 40
7.5
  0
LINE
  8
ITEM_50
 10
1044.584309976097
 20
438.2933387181072
 30
0.0
 11
1037.090232486026
 21
433.9632116992029
 31
0.0
  0
LINE
  8
ITEM_50
 10
1037.090232486026
 20
433.9632116992029
 30
0.0
 11
1037.090232486022
 21
425.3234657370172
 31
0.0
  0
LINE
  8
ITEM_50
 10
1037.090232486022
 20
425.3234657370172
 30
0.0
 11
1044.584309976097
 21
420.9933387181072
 31
0.0
  0
LINE
  8
ITEM_50
 10
1044.584309976097
 20
420.9933387181072
 30
0.0
 11
1052.078387466172
 21
425.3234657370172
 31
0.0
  0
LINE
  8
ITEM_50
 10
1052.078387466172
 20
425.3234657370172
 30
0.0
 11
1052.078387466169
 21
433.9632116992029
 31
0.0
  0
LINE
  8
ITEM_50
 10
1052.078387466169
 20
433.9632116992029
 30
0.0
 11
1044.584309976097
 21
438.2933387181072
 31
0.0
  0
CIRCLE
  8
ITEM_50
 10
1044.584309976097
 20
429.6433387181072
 30
0.0
 40
4.5
  0
CIRCLE
  8
ITEM_50
 10
1044.584309976097
 20
429.6433387181072
 30
0.0
 40
3.5
  0
POINT
  8
ITEM_HILFE
 10
167.3569016789565
 20
489.6433387181072
 30
0.0
  0
POINT
  8
ITEM_HILFE
 10
207.3569016789565
 20
489.6433387181072
 30
0.0
  0
POINT
  8
ITEM_HILFE
 10
187.3569016789565
 20
489.6433387181072
 30
0.0
  0
CIRCLE
  8
ITEM_50
 10
220.8569002336238
 20
483.1433387181041
 30
0.0
 40
4.15
  0
CIRCLE
  8
ITEM_50
 10
220.8569002336238
 20
416.1433387181104
 30
0.0
 40
4.15
  0
CIRCLE
  8
ITEM_50
 10
153.8569016789533
 20
483.1433387181041
 30
0.0
 40
4.15
  0
CIRCLE
  8
ITEM_50
 10
153.8569016789533
 20
416.1433387181104
 30
0.0
 40
4.15
  0
LINE
  8
ITEM_50
 10
227.3569016789565
 20
413.6433387181071
 30
0.0
 11
227.3569016789565
 21
485.6433387181072
 31
0.0
  0
ARC
  8
ITEM_50
 10
223.3569016789565
 20
485.6433387181072
 30
0.0
 40
4.0
 50
0.0
 51
90.0
  0
LINE
  8
ITEM_50
 10
151.3569016789565
 20
489.6433387181072
 30
0.0
 11
223.3569016789565
 21
489.6433387181072
 31
0.0
  0
ARC
  8
ITEM_50
 10
151.3569016789565
 20
485.6433387181072
 30
0.0
 40
4.0
 50
90.0
 51
180.0
  0
LINE
  8
ITEM_50
 10
147.3569016789565
 20
413.6433387181072
 30
0.0
 11
147.3569016789565
 21
485.6433387181072
 31
0.0
  0
ARC
  8
ITEM_50
 10
151.3569016789565
 20
413.6433387181072
 30
0.0
 40
4.0
 50
243.4349488229234
 51
270.0
  0
ARC
  8
ITEM_50
 10
151.3569016789565
 20
413.6433387181072
 30
0.0
 40
4.0
 50
180.000027440556
 51
243.4349488229234
  0
LINE
  8
ITEM_50
 10
223.3569016789565
 20
409.6433387181071
 30
0.0
 11
151.3569002336207
 21
409.6433387181071
 31
0.0
  0
ARC
  8
ITEM_50
 10
223.3569016789565
 20
413.6433387181071
 30
0.0
 40
4.0
 50
270.0
 51
0.0
  0
ARC
  8
ITEM_50
 10
1008.584309976097
 20
413.6433387181071
 30
0.0
 40
4.0
 50
179.9999999999998
 51
270.0
  0
CIRCLE
  8
ITEM_50
 10
1011.08431142143
 20
483.1433387181041
 30
0.0
 40
4.0
  0
LINE
  8
ITEM_50
 10
1008.78431142143
 20
483.6433387181041
 30
0.0
 11
1008.78431142143
 21
482.643338718104
 31
0.0
  0
LINE
  8
ITEM_50
 10
1010.58431142143
 20
485.4433387181042
 30
0.0
 11
1010.58431142143
 21
483.6433387181041
 31
0.0
  0
LINE
  8
ITEM_50
 10
1011.58431142143
 20
485.4433387181042
 30
0.0
 11
1011.58431142143
 21
483.6433387181041
 31
0.0
  0
LINE
  8
ITEM_50
 10
1008.78431142143
 20
483.6433387181041
 30
0.0
 11
1010.58431142143
 21
483.6433387181043
 31
0.0
  0
LINE
  8
ITEM_50
 10
1008.78431142143
 20
482.6433387181041
 30
0.0
 11
1010.58431142143
 21
482.6433387181041
 31
0.0
  0
LINE
  8
ITEM_50
 10
1010.58431142143
 20
485.4433387181042
 30
0.0
 11
1011.58431142143
 21
485.4433387181042
 31
0.0
  0
LINE
  8
ITEM_50
 10
1010.58431142143
 20
480.8433387181041
 30
0.0
 11
1011.58431142143
 21
480.8433387181041
 31
0.0
  0
LINE
  8
ITEM_50
 10
1013.38431142143
 20
483.6433387181041
 30
0.0
 11
1013.38431142143
 21
482.643338718104
 31
0.0
  0
LINE
  8
ITEM_50
 10
1010.58431142143
 20
482.6433387181043
 30
0.0
 11
1010.58431142143
 21
480.8433387181041
 31
0.0
  0
LINE
  8
ITEM_50
 10
1011.58431142143
 20
482.6433387181043
 30
0.0
 11
1011.58431142143
 21
480.8433387181041
 31
0.0
  0
LINE
  8
ITEM_50
 10
1011.58431142143
 20
483.6433387181043
 30
0.0
 11
1013.38431142143
 21
483.6433387181041
 31
0.0
  0
LINE
  8
ITEM_50
 10
1011.58431142143
 20
482.6433387181041
 30
0.0
 11
1013.38431142143
 21
482.6433387181041
 31
0.0
  0
LINE
  8
ITEM_50
 10
415.9772699208427
 20
590.7804235077986
 30
0.0
 11
267.9772699208427
 21
590.7804235077987
 31
0.0
  0
LINE
  8
ITEM_50
 10
955.9772699208465
 20
571.3804235070355
 30
0.0
 11
987.9772699208426
 21
571.3804235070355
 31
0.0
  0
LINE
  8
ITEM_50
 10
955.9772699208465
 20
557.3804235074172
 30
0.0
 11
987.9772699208426
 21
557.3804235074173
 31
0.0
  0
LINE
  8
ITEM_50
 10
415.9772699208427
 20
543.3804235070357
 30
0.0
 11
267.9772699208427
 21
543.3804235070358
 31
0.0
  0
LINE
  8
ITEM_50
 10
415.9772699208427
 20
523.9804235070296
 30
0.0
 11
267.9772699208427
 21
523.9804235070296
 31
0.0
  0
LINE
  8
ITEM_50
 10
263.9772699208427
 20
566.0304235074261
 30
0.0
 11
258.9772699208401
 21
566.0304235074261
 31
0.0
  0
LINE
  8
ITEM_50
 10
258.9772699208401
 20
566.0304235074261
 30
0.0
 11
258.97726992084
 21
548.7304235074261
 31
0.0
  0
LINE
  8
ITEM_50
 10
258.97726992084
 20
548.7304235074261
 30
0.0
 11
263.9772699208427
 21
548.7304235074261
 31
0.0
  0
LINE
  8
ITEM_50
 10
258.97726992084
 20
561.7002964885217
 30
0.0
 11
263.9772699208427
 21
561.7002964885217
 31
0.0
  0
LINE
  8
ITEM_50
 10
258.97726992084
 20
553.0605505263349
 30
0.0
 11
263.9772699208427
 21
553.0605505263349
 31
0.0
  0
ARC
  8
ITEM_50
 10
254.5193027468914
 20
563.8653599979741
 30
0.0
 40
3.542032826051001
 50
142.3201418046511
 51
217.6798581953661
  0
LINE
  8
ITEM_50
 10
251.7160017389976
 20
561.7002964885207
 30
0.0
 11
256.4772699208411
 21
561.7002964885207
 31
0.0
  0
ARC
  8
ITEM_50
 10
263.9772699208485
 20
557.3804235074242
 30
0.0
 40
13.0
 50
160.5916905358059
 51
199.4083094641665
  0
LINE
  8
ITEM_50
 10
250.9772699208398
 20
563.8653599979772
 30
0.0
 11
250.9772699208403
 21
550.8954870168802
 31
0.0
  0
ARC
  8
ITEM_50
 10
254.5193027468895
 20
550.8954870168802
 30
0.0
 40
3.542032826049146
 50
142.3201418046181
 51
217.6798581953406
  0
LINE
  8
ITEM_50
 10
251.7160017389999
 20
553.060550526334
 30
0.0
 11
256.4772699208411
 21
553.060550526334
 31
0.0
  0
LINE
  8
ITEM_50
 10
251.7160017389979
 20
548.7304235074291
 30
0.0
 11
256.4772699208411
 21
548.7304235074257
 31
0.0
  0
LINE
  8
ITEM_50
 10
251.7160017389985
 20
566.0304235074261
 30
0.0
 11
256.4772699208411
 21
566.0304235074261
 31
0.0
  0
LINE
  8
ITEM_50
 10
256.4772699208411
 20
566.0304235074261
 30
0.0
 11
256.4772699208411
 21
548.7304235074261
 31
0.0
  0
LINE
  8
ITEM_50
 10
256.4772699208411
 20
563.7804235074261
 30
0.0
 11
258.97726992084
 21
563.7804235074261
 31
0.0
  0
LINE
  8
ITEM_50
 10
256.4772699208411
 20
550.9804235074261
 30
0.0
 11
258.97726992084
 21
550.9804235074261
 31
0.0
  0
LINE
  8
ITEM_25
 10
256.4772699208411
 20
562.8804235074261
 30
0.0
 11
258.97726992084
 21
562.880423507426
 31
0.0
  0
LINE
  8
ITEM_25
 10
256.4772699208411
 20
551.880423507426
 30
0.0
 11
258.97726992084
 21
551.880423507426
 31
0.0
  0
ARC
  8
ITEM_50
 10
248.0493721226301
 20
561.317072578134
 30
0.0
 40
3.572663919302099
 50
85.86209512243689
 51
178.98397072856
  0
LINE
  8
ITEM_50
 10
248.3071659065163
 20
564.880423507424
 30
0.0
 11
251.1258321616927
 21
564.880423507424
 31
0.0
  0
LINE
  8
ITEM_50
 10
244.4772699208391
 20
561.3804235074242
 30
0.0
 11
244.4772699208391
 21
557.3804235074251
 31
0.0
  0
LINE
  8
ITEM_50
 10
244.4772699208391
 20
553.380423507426
 30
0.0
 11
244.4772699208391
 21
557.3804235074251
 31
0.0
  0
ARC
  8
ITEM_50
 10
248.0493721226301
 20
553.4437744367161
 30
0.0
 40
3.572663919302099
 50
181.0160292714396
 51
274.1379048775629
  0
LINE
  8
ITEM_50
 10
248.3071659065163
 20
549.880423507426
 30
0.0
 11
251.1258321616926
 21
549.880423507426
 31
0.0
  0
LINE
  8
ITEM_50
 10
263.9772699208427
 20
438.2933387181095
 30
0.0
 11
258.9772699208401
 21
438.2933387181095
 31
0.0
  0
LINE
  8
ITEM_50
 10
258.9772699208401
 20
438.2933387181095
 30
0.0
 11
258.97726992084
 21
420.9933387181095
 31
0.0
  0
LINE
  8
ITEM_50
 10
258.97726992084
 20
420.9933387181095
 30
0.0
 11
263.9772699208427
 21
420.9933387181095
 31
0.0
  0
LINE
  8
ITEM_50
 10
258.97726992084
 20
433.9632116992051
 30
0.0
 11
263.9772699208427
 21
433.9632116992051
 31
0.0
  0
LINE
  8
ITEM_50
 10
258.97726992084
 20
425.3234657370183
 30
0.0
 11
263.9772699208427
 21
425.3234657370183
 31
0.0
  0
ARC
  8
ITEM_50
 10
254.5193027468914
 20
436.1282752086574
 30
0.0
 40
3.542032826051001
 50
142.3201418046511
 51
217.6798581953661
  0
LINE
  8
ITEM_50
 10
251.7160017389976
 20
433.9632116992041
 30
0.0
 11
256.4772699208411
 21
433.9632116992041
 31
0.0
  0
ARC
  8
ITEM_50
 10
263.9772699208485
 20
429.6433387181076
 30
0.0
 40
13.0
 50
160.5916905358059
 51
199.4083094641665
  0
LINE
  8
ITEM_50
 10
250.9772699208398
 20
436.1282752086606
 30
0.0
 11
250.9772699208403
 21
423.1584022275636
 31
0.0
  0
ARC
  8
ITEM_50
 10
254.5193027468895
 20
423.1584022275636
 30
0.0
 40
3.542032826049146
 50
142.3201418046181
 51
217.6798581953406
  0
LINE
  8
ITEM_50
 10
251.7160017389999
 20
425.3234657370174
 30
0.0
 11
256.4772699208411
 21
425.3234657370174
 31
0.0
  0
LINE
  8
ITEM_50
 10
251.7160017389979
 20
420.9933387181125
 30
0.0
 11
256.4772699208411
 21
420.9933387181091
 31
0.0
  0
LINE
  8
ITEM_50
 10
251.7160017389985
 20
438.2933387181095
 30
0.0
 11
256.4772699208411
 21
438.2933387181095
 31
0.0
  0
LINE
  8
ITEM_50
 10
256.4772699208411
 20
438.2933387181095
 30
0.0
 11
256.4772699208411
 21
420.9933387181095
 31
0.0
  0
LINE
  8
ITEM_50
 10
256.4772699208411
 20
436.0433387181095
 30
0.0
 11
258.97726992084
 21
436.0433387181095
 31
0.0
  0
LINE
  8
ITEM_50
 10
256.4772699208411
 20
423.2433387181095
 30
0.0
 11
258.97726992084
 21
423.2433387181095
 31
0.0
  0
LINE
  8
ITEM_25
 10
256.4772699208411
 20
435.1433387181095
 30
0.0
 11
258.97726992084
 21
435.1433387181094
 31
0.0
  0
LINE
  8
ITEM_25
 10
256.4772699208411
 20
424.1433387181094
 30
0.0
 11
258.97726992084
 21
424.1433387181094
 31
0.0
  0
ARC
  8
ITEM_50
 10
248.0493721226301
 20
433.5799877888173
 30
0.0
 40
3.572663919302099
 50
85.86209512243689
 51
178.98397072856
  0
LINE
  8
ITEM_50
 10
248.3071659065163
 20
437.1433387181074
 30
0.0
 11
251.1258321616927
 21
437.1433387181074
 31
0.0
  0
LINE
  8
ITEM_50
 10
244.4772699208391
 20
433.6433387181076
 30
0.0
 11
244.4772699208391
 21
429.6433387181085
 31
0.0
  0
LINE
  8
ITEM_50
 10
244.4772699208391
 20
425.6433387181094
 30
0.0
 11
244.4772699208391
 21
429.6433387181085
 31
0.0
  0
ARC
  8
ITEM_50
 10
248.0493721226301
 20
425.7066896473995
 30
0.0
 40
3.572663919302099
 50
181.0160292714396
 51
274.1379048775629
  0
LINE
  8
ITEM_50
 10
248.3071659065163
 20
422.1433387181094
 30
0.0
 11
251.1258321616926
 21
422.1433387181094
 31
0.0
  0
LINE
  8
ITEM_50
 10
263.9772699208427
 20
346.237650582169
 30
0.0
 11
258.9772699208401
 21
346.237650582169
 31
0.0
  0
LINE
  8
ITEM_50
 10
258.9772699208401
 20
346.237650582169
 30
0.0
 11
258.97726992084
 21
328.9376505821691
 31
0.0
  0
LINE
  8
ITEM_50
 10
258.97726992084
 20
328.9376505821691
 30
0.0
 11
263.9772699208427
 21
328.9376505821691
 31
0.0
  0
LINE
  8
ITEM_50
 10
258.97726992084
 20
341.9075235632647
 30
0.0
 11
263.9772699208427
 21
341.9075235632647
 31
0.0
  0
LINE
  8
ITEM_50
 10
258.97726992084
 20
333.2677776010779
 30
0.0
 11
263.9772699208427
 21
333.2677776010779
 31
0.0
  0
ARC
  8
ITEM_50
 10
254.5193027468914
 20
344.072587072717
 30
0.0
 40
3.542032826051001
 50
142.3201418046511
 51
217.6798581953661
  0
LINE
  8
ITEM_50
 10
251.7160017389976
 20
341.9075235632636
 30
0.0
 11
256.4772699208411
 21
341.9075235632636
 31
0.0
  0
ARC
  8
ITEM_50
 10
263.9772699208485
 20
337.5876505821671
 30
0.0
 40
13.0
 50
160.5916905358059
 51
199.4083094641665
  0
LINE
  8
ITEM_50
 10
250.9772699208398
 20
344.0725870727202
 30
0.0
 11
250.9772699208403
 21
331.1027140916231
 31
0.0
  0
ARC
  8
ITEM_50
 10
254.5193027468895
 20
331.1027140916231
 30
0.0
 40
3.542032826049146
 50
142.3201418046181
 51
217.6798581953406
  0
LINE
  8
ITEM_50
 10
251.7160017389999
 20
333.267777601077
 30
0.0
 11
256.4772699208411
 21
333.267777601077
 31
0.0
  0
LINE
  8
ITEM_50
 10
251.7160017389979
 20
328.937650582172
 30
0.0
 11
256.4772699208411
 21
328.9376505821686
 31
0.0
  0
LINE
  8
ITEM_50
 10
251.7160017389985
 20
346.237650582169
 30
0.0
 11
256.4772699208411
 21
346.237650582169
 31
0.0
  0
LINE
  8
ITEM_50
 10
256.4772699208411
 20
346.237650582169
 30
0.0
 11
256.4772699208411
 21
328.9376505821691
 31
0.0
  0
LINE
  8
ITEM_50
 10
256.4772699208411
 20
343.987650582169
 30
0.0
 11
258.97726992084
 21
343.987650582169
 31
0.0
  0
LINE
  8
ITEM_50
 10
256.4772699208411
 20
331.1876505821691
 30
0.0
 11
258.97726992084
 21
331.1876505821691
 31
0.0
  0
LINE
  8
ITEM_25
 10
256.4772699208411
 20
343.087650582169
 30
0.0
 11
258.97726992084
 21
343.0876505821689
 31
0.0
  0
LINE
  8
ITEM_25
 10
256.4772699208411
 20
332.0876505821689
 30
0.0
 11
258.97726992084
 21
332.0876505821689
 31
0.0
  0
ARC
  8
ITEM_50
 10
248.0493721226301
 20
341.5242996528769
 30
0.0
 40
3.572663919302099
 50
85.86209512243689
 51
178.98397072856
  0
LINE
  8
ITEM_50
 10
248.3071659065163
 20
345.087650582167
 30
0.0
 11
251.1258321616927
 21
345.087650582167
 31
0.0
  0
LINE
  8
ITEM_50
 10
244.4772699208391
 20
341.5876505821671
 30
0.0
 11
244.4772699208391
 21
337.587650582168
 31
0.0
  0
LINE
  8
ITEM_50
 10
244.4772699208391
 20
333.5876505821689
 30
0.0
 11
244.4772699208391
 21
337.587650582168
 31
0.0
  0
ARC
  8
ITEM_50
 10
248.0493721226301
 20
333.651001511459
 30
0.0
 40
3.572663919302099
 50
181.0160292714396
 51
274.1379048775629
  0
LINE
  8
ITEM_50
 10
248.3071659065163
 20
330.0876505821689
 30
0.0
 11
251.1258321616926
 21
330.0876505821689
 31
0.0
  0
CIRCLE
  8
ITEM_50
 10
153.8569016789533
 20
483.1433387181041
 30
0.0
 40
4.0
  0
LINE
  8
ITEM_50
 10
156.156901678953
 20
483.6433387181041
 30
0.0
 11
156.156901678953
 21
482.643338718104
 31
0.0
  0
LINE
  8
ITEM_50
 10
154.3569016789532
 20
485.4433387181042
 30
0.0
 11
154.3569016789531
 21
483.6433387181041
 31
0.0
  0
LINE
  8
ITEM_50
 10
153.3569016789532
 20
485.4433387181042
 30
0.0
 11
153.3569016789532
 21
483.6433387181041
 31
0.0
  0
LINE
  8
ITEM_50
 10
156.156901678953
 20
483.6433387181041
 30
0.0
 11
154.3569016789531
 21
483.6433387181043
 31
0.0
  0
LINE
  8
ITEM_50
 10
156.156901678953
 20
482.6433387181041
 30
0.0
 11
154.3569016789532
 21
482.6433387181041
 31
0.0
  0
LINE
  8
ITEM_50
 10
154.3569016789531
 20
485.4433387181042
 30
0.0
 11
153.3569016789531
 21
485.4433387181042
 31
0.0
  0
LINE
  8
ITEM_50
 10
154.3569016789531
 20
480.8433387181041
 30
0.0
 11
153.3569016789531
 21
480.8433387181041
 31
0.0
  0
LINE
  8
ITEM_50
 10
151.5569016789535
 20
483.6433387181041
 30
0.0
 11
151.5569016789535
 21
482.643338718104
 31
0.0
  0
LINE
  8
ITEM_50
 10
154.3569016789531
 20
482.6433387181043
 30
0.0
 11
154.3569016789532
 21
480.8433387181041
 31
0.0
  0
LINE
  8
ITEM_50
 10
153.3569016789531
 20
482.6433387181043
 30
0.0
 11
153.3569016789531
 21
480.8433387181041
 31
0.0
  0
LINE
  8
ITEM_50
 10
153.3569016789531
 20
483.6433387181043
 30
0.0
 11
151.5569016789535
 21
483.6433387181041
 31
0.0
  0
LINE
  8
ITEM_50
 10
153.3569016789532
 20
482.6433387181041
 30
0.0
 11
151.5569016789535
 21
482.6433387181041
 31
0.0
  0
CIRCLE
  8
ITEM_50
 10
220.8569002336238
 20
483.1433387181041
 30
0.0
 40
4.0
  0
LINE
  8
ITEM_50
 10
223.1569002336235
 20
483.6433387181041
 30
0.0
 11
223.1569002336235
 21
482.643338718104
 31
0.0
  0
LINE
  8
ITEM_50
 10
221.3569002336237
 20
485.4433387181042
 30
0.0
 11
221.3569002336236
 21
483.6433387181041
 31
0.0
  0
LINE
  8
ITEM_50
 10
220.3569002336237
 20
485.4433387181042
 30
0.0
 11
220.3569002336237
 21
483.6433387181041
 31
0.0
  0
LINE
  8
ITEM_50
 10
223.1569002336235
 20
483.6433387181041
 30
0.0
 11
221.3569002336236
 21
483.6433387181043
 31
0.0
  0
LINE
  8
ITEM_50
 10
223.1569002336235
 20
482.6433387181041
 30
0.0
 11
221.3569002336237
 21
482.6433387181041
 31
0.0
  0
LINE
  8
ITEM_50
 10
221.3569002336236
 20
485.4433387181042
 30
0.0
 11
220.3569002336236
 21
485.4433387181042
 31
0.0
  0
LINE
  8
ITEM_50
 10
221.3569002336236
 20
480.8433387181041
 30
0.0
 11
220.3569002336236
 21
480.8433387181041
 31
0.0
  0
LINE
  8
ITEM_50
 10
218.5569002336239
 20
483.6433387181041
 30
0.0
 11
218.5569002336239
 21
482.643338718104
 31
0.0
  0
LINE
  8
ITEM_50
 10
221.3569002336236
 20
482.6433387181043
 30
0.0
 11
221.3569002336237
 21
480.8433387181041
 31
0.0
  0
LINE
  8
ITEM_50
 10
220.3569002336236
 20
482.6433387181043
 30
0.0
 11
220.3569002336236
 21
480.8433387181041
 31
0.0
  0
LINE
  8
ITEM_50
 10
220.3569002336236
 20
483.6433387181043
 30
0.0
 11
218.5569002336239
 21
483.6433387181041
 31
0.0
  0
LINE
  8
ITEM_50
 10
220.3569002336237
 20
482.6433387181041
 30
0.0
 11
218.5569002336239
 21
482.6433387181041
 31
0.0
  0
CIRCLE
  8
ITEM_50
 10
220.8569002336238
 20
416.1433387181104
 30
0.0
 40
4.0
  0
LINE
  8
ITEM_50
 10
223.1569002336235
 20
416.6433387181104
 30
0.0
 11
223.1569002336235
 21
415.6433387181103
 31
0.0
  0
LINE
  8
ITEM_50
 10
221.3569002336237
 20
418.4433387181105
 30
0.0
 11
221.3569002336236
 21
416.6433387181104
 31
0.0
  0
LINE
  8
ITEM_50
 10
220.3569002336237
 20
418.4433387181105
 30
0.0
 11
220.3569002336237
 21
416.6433387181104
 31
0.0
  0
LINE
  8
ITEM_50
 10
223.1569002336235
 20
416.6433387181104
 30
0.0
 11
221.3569002336236
 21
416.6433387181105
 31
0.0
  0
LINE
  8
ITEM_50
 10
223.1569002336235
 20
415.6433387181104
 30
0.0
 11
221.3569002336237
 21
415.6433387181104
 31
0.0
  0
LINE
  8
ITEM_50
 10
221.3569002336236
 20
418.4433387181105
 30
0.0
 11
220.3569002336236
 21
418.4433387181105
 31
0.0
  0
LINE
  8
ITEM_50
 10
221.3569002336236
 20
413.8433387181103
 30
0.0
 11
220.3569002336236
 21
413.8433387181103
 31
0.0
  0
LINE
  8
ITEM_50
 10
218.5569002336239
 20
416.6433387181104
 30
0.0
 11
218.5569002336239
 21
415.6433387181103
 31
0.0
  0
LINE
  8
ITEM_50
 10
221.3569002336236
 20
415.6433387181105
 30
0.0
 11
221.3569002336237
 21
413.8433387181103
 31
0.0
  0
LINE
  8
ITEM_50
 10
220.3569002336236
 20
415.6433387181105
 30
0.0
 11
220.3569002336236
 21
413.8433387181103
 31
0.0
  0
LINE
  8
ITEM_50
 10
220.3569002336236
 20
416.6433387181105
 30
0.0
 11
218.5569002336239
 21
416.6433387181104
 31
0.0
  0
LINE
  8
ITEM_50
 10
220.3569002336237
 20
415.6433387181104
 30
0.0
 11
218.5569002336239
 21
415.6433387181104
 31
0.0
  0
CIRCLE
  8
ITEM_50
 10
153.8569016789533
 20
416.1433387181104
 30
0.0
 40
4.0
  0
LINE
  8
ITEM_50
 10
156.156901678953
 20
416.6433387181104
 30
0.0
 11
156.156901678953
 21
415.6433387181103
 31
0.0
  0
LINE
  8
ITEM_50
 10
154.3569016789532
 20
418.4433387181105
 30
0.0
 11
154.3569016789531
 21
416.6433387181104
 31
0.0
  0
LINE
  8
ITEM_50
 10
153.3569016789532
 20
418.4433387181105
 30
0.0
 11
153.3569016789532
 21
416.6433387181104
 31
0.0
  0
LINE
  8
ITEM_50
 10
156.156901678953
 20
416.6433387181104
 30
0.0
 11
154.3569016789531
 21
416.6433387181105
 31
0.0
  0
LINE
  8
ITEM_50
 10
156.156901678953
 20
415.6433387181104
 30
0.0
 11
154.3569016789532
 21
415.6433387181104
 31
0.0
  0
LINE
  8
ITEM_50
 10
154.3569016789531
 20
418.4433387181105
 30
0.0
 11
153.3569016789531
 21
418.4433387181105
 31
0.0
  0
LINE
  8
ITEM_50
 10
154.3569016789531
 20
413.8433387181103
 30
0.0
 11
153.3569016789531
 21
413.8433387181103
 31
0.0
  0
LINE
  8
ITEM_50
 10
151.5569016789535
 20
416.6433387181104
 30
0.0
 11
151.5569016789535
 21
415.6433387181103
 31
0.0
  0
LINE
  8
ITEM_50
 10
154.3569016789531
 20
415.6433387181105
 30
0.0
 11
154.3569016789532
 21
413.8433387181103
 31
0.0
  0
LINE
  8
ITEM_50
 10
153.3569016789531
 20
415.6433387181105
 30
0.0
 11
153.3569016789531
 21
413.8433387181103
 31
0.0
  0
LINE
  8
ITEM_50
 10
153.3569016789531
 20
416.6433387181105
 30
0.0
 11
151.5569016789535
 21
416.6433387181104
 31
0.0
  0
LINE
  8
ITEM_50
 10
153.3569016789532
 20
415.6433387181104
 30
0.0
 11
151.5569016789535
 21
415.6433387181104
 31
0.0
  0
CIRCLE
  8
ITEM_50
 10
1078.0843099761
 20
483.1433387181041
 30
0.0
 40
4.0
  0
LINE
  8
ITEM_50
 10
1075.784309976101
 20
483.6433387181041
 30
0.0
 11
1075.784309976101
 21
482.643338718104
 31
0.0
  0
LINE
  8
ITEM_50
 10
1077.5843099761
 20
485.4433387181042
 30
0.0
 11
1077.584309976101
 21
483.6433387181041
 31
0.0
  0
LINE
  8
ITEM_50
 10
1078.5843099761
 20
485.4433387181042
 30
0.0
 11
1078.5843099761
 21
483.6433387181041
 31
0.0
  0
LINE
  8
ITEM_50
 10
1075.784309976101
 20
483.6433387181041
 30
0.0
 11
1077.584309976101
 21
483.6433387181043
 31
0.0
  0
LINE
  8
ITEM_50
 10
1075.784309976101
 20
482.6433387181041
 30
0.0
 11
1077.5843099761
 21
482.6433387181041
 31
0.0
  0
LINE
  8
ITEM_50
 10
1077.584309976101
 20
485.4433387181042
 30
0.0
 11
1078.584309976101
 21
485.4433387181042
 31
0.0
  0
LINE
  8
ITEM_50
 10
1077.584309976101
 20
480.8433387181041
 30
0.0
 11
1078.584309976101
 21
480.8433387181041
 31
0.0
  0
LINE
  8
ITEM_50
 10
1080.3843099761
 20
483.6433387181041
 30
0.0
 11
1080.3843099761
 21
482.643338718104
 31
0.0
  0
LINE
  8
ITEM_50
 10
1077.584309976101
 20
482.6433387181043
 30
0.0
 11
1077.5843099761
 21
480.8433387181041
 31
0.0
  0
LINE
  8
ITEM_50
 10
1078.584309976101
 20
482.6433387181043
 30
0.0
 11
1078.584309976101
 21
480.8433387181041
 31
0.0
  0
LINE
  8
ITEM_50
 10
1078.584309976101
 20
483.6433387181043
 30
0.0
 11
1080.3843099761
 21
483.6433387181041
 31
0.0
  0
LINE
  8
ITEM_50
 10
1078.5843099761
 20
482.6433387181041
 30
0.0
 11
1080.3843099761
 21
482.6433387181041
 31
0.0
  0
CIRCLE
  8
ITEM_50
 10
1078.0843099761
 20
416.1433387181104
 30
0.0
 40
4.0
  0
LINE
  8
ITEM_50
 10
1075.784309976101
 20
416.6433387181104
 30
0.0
 11
1075.784309976101
 21
415.6433387181103
 31
0.0
  0
LINE
  8
ITEM_50
 10
1077.5843099761
 20
418.4433387181105
 30
0.0
 11
1077.584309976101
 21
416.6433387181104
 31
0.0
  0
LINE
  8
ITEM_50
 10
1078.5843099761
 20
418.4433387181105
 30
0.0
 11
1078.5843099761
 21
416.6433387181104
 31
0.0
  0
LINE
  8
ITEM_50
 10
1075.784309976101
 20
416.6433387181104
 30
0.0
 11
1077.584309976101
 21
416.6433387181105
 31
0.0
  0
LINE
  8
ITEM_50
 10
1075.784309976101
 20
415.6433387181104
 30
0.0
 11
1077.5843099761
 21
415.6433387181104
 31
0.0
  0
LINE
  8
ITEM_50
 10
1077.584309976101
 20
418.4433387181105
 30
0.0
 11
1078.584309976101
 21
418.4433387181105
 31
0.0
  0
LINE
  8
ITEM_50
 10
1077.584309976101
 20
413.8433387181103
 30
0.0
 11
1078.584309976101
 21
413.8433387181103
 31
0.0
  0
LINE
  8
ITEM_50
 10
1080.3843099761
 20
416.6433387181104
 30
0.0
 11
1080.3843099761
 21
415.6433387181103
 31
0.0
  0
LINE
  8
ITEM_50
 10
1077.584309976101
 20
415.6433387181105
 30
0.0
 11
1077.5843099761
 21
413.8433387181103
 31
0.0
  0
LINE
  8
ITEM_50
 10
1078.584309976101
 20
415.6433387181105
 30
0.0
 11
1078.584309976101
 21
413.8433387181103
 31
0.0
  0
LINE
  8
ITEM_50
 10
1078.584309976101
 20
416.6433387181105
 30
0.0
 11
1080.3843099761
 21
416.6433387181104
 31
0.0
  0
LINE
  8
ITEM_50
 10
1078.5843099761
 20
415.6433387181104
 30
0.0
 11
1080.3843099761
 21
415.6433387181104
 31
0.0
  0
CIRCLE
  8
ITEM_50
 10
1011.08431142143
 20
416.1433387181104
 30
0.0
 40
4.0
  0
LINE
  8
ITEM_50
 10
1008.78431142143
 20
416.6433387181104
 30
0.0
 11
1008.78431142143
 21
415.6433387181103
 31
0.0
  0
LINE
  8
ITEM_50
 10
1010.58431142143
 20
418.4433387181105
 30
0.0
 11
1010.58431142143
 21
416.6433387181104
 31
0.0
  0
LINE
  8
ITEM_50
 10
1011.58431142143
 20
418.4433387181105
 30
0.0
 11
1011.58431142143
 21
416.6433387181104
 31
0.0
  0
LINE
  8
ITEM_50
 10
1008.78431142143
 20
416.6433387181104
 30
0.0
 11
1010.58431142143
 21
416.6433387181105
 31
0.0
  0
LINE
  8
ITEM_50
 10
1008.78431142143
 20
415.6433387181104
 30
0.0
 11
1010.58431142143
 21
415.6433387181104
 31
0.0
  0
LINE
  8
ITEM_50
 10
1010.58431142143
 20
418.4433387181105
 30
0.0
 11
1011.58431142143
 21
418.4433387181105
 31
0.0
  0
LINE
  8
ITEM_50
 10
1010.58431142143
 20
413.8433387181103
 30
0.0
 11
1011.58431142143
 21
413.8433387181103
 31
0.0
  0
LINE
  8
ITEM_50
 10
1013.38431142143
 20
416.6433387181104
 30
0.0
 11
1013.38431142143
 21
415.6433387181103
 31
0.0
  0
LINE
  8
ITEM_50
 10
1010.58431142143
 20
415.6433387181105
 30
0.0
 11
1010.58431142143
 21
413.8433387181103
 31
0.0
  0
LINE
  8
ITEM_50
 10
1011.58431142143
 20
415.6433387181105
 30
0.0
 11
1011.58431142143
 21
413.8433387181103
 31
0.0
  0
LINE
  8
ITEM_50
 10
1011.58431142143
 20
416.6433387181105
 30
0.0
 11
1013.38431142143
 21
416.6433387181104
 31
0.0
  0
LINE
  8
ITEM_50
 10
1011.58431142143
 20
415.6433387181104
 30
0.0
 11
1013.38431142143
 21
415.6433387181104
 31
0.0
  0
ENDSEC
  0
EOF
